Selasa, 23 Juli 2013

Chord Lagu Air Mata [Tab] - Dewa 19

Fig1 Fig2 Fig3

E-|------8-------8----|------8-------8----|------8-------8----|
B-|----9---9---9---9--|----9---9---9---9--|----9---9---9---9--|
G-|--8-------8--------|--7-------7--------|--6-------6--------|
D-|-------------------|-------------------|-------------------|


Fig4 Fig5 Fig6

E-|------6-------6----|------4-------4----|------4-------4----|
B-|----8---8---8---8--|----6---6---6---6--|----6---6---6---6--|
G-|--5-------5--------|--5-------5--------|--4-------4--------|
D-|-------------------|-------------------|-------------------|

Fig7

E-|------3-------3------3-------3--|
B-|----5---5---5------5---5---5----|
G-|--5-------5------5-------5------|
D-|--------------------------------|


REFF
Fig1 (Lagi) Fig8
----|
E-|------8-------8----|------6-------6----|     |
B-|----9---9---9---9--|----8---8---8---8--|     -----> (2X)
G-|--8-------8--------|--8-------8--------|     |
D-|-------------------|-------------------|     |
----|

Fig3 (Lagi) Fig9

E-|------8-------8----|------6-------6----|
B-|----9---9---9---9--|----9---9---9---9--|
G-|--6-------6--------|--7-------7--------|
D-|-------------------|-------------------|


Fig10

E-|--------6-----------------6---------|
B-|------9---9---9---------9---9---9---|
G-|----7-------7---------7-------7-----|
D-|--8----------------8----------------|


Atau gunakan progresi ini
DEWA-AIR MATA (VERSION 2.0.0)
-Pergerakan jari lebih mudah.

Fig1  Fig2 Fig3
(Ab) (Dm7-5) (DbM7)
E-|--------------------------|--------------------------|--------------------------|
B-|--------13----------13----|--------13----------13----|--------13----------13----|
G-|-----13----13----13----13-|-----13----13----13----13-|-----13----13----13----13-|
D-|--13----------13----------|--12----------12----------|--11----------11----------|


Fig4   Fig5 Fig6
(?)   (C) (?)
E-|-----------------------|-----------------------|---------------------|
B-|--------11----------11-|-------9----------9----|------9---------9----|
G-|-----12----12----12----|----10---10----10---10-|---10---10---10---10-|
D-|--10----------10-------|-10---------10---------|-9---------9---------|

Fig7
(CmM7)
E-|----------------------------------|
B-|------8--------8-------8--------8-|
G-|----9---9----9-------9---9----9---|
D-|--10------10-------10------10-----|

REFF

Fig1 (Lagi) Fig8
(Ab) (EbmM7)    --|
E-|--------------------------|--------------------------|    |
B-|--------13----------13----|--------11----------11----|    -----> (2X)
G-|-----13----13----13----13-|-----12----12----12----12-|    |
D-|--13----------13----------|--13----------13----------|    |
   --|

Fig3 (Lagi) Fig9
(DbM7) (?)
E-|--------------------------|--------------------------|
B-|--------13----------13----|--------11----------11----|
G-|-----13----13----13----13-|-----13----13----13----13-|
D-|--11----------11----------|--12----------12----------|


Fig10
(Bb7)
E-|----------------------------------------------|
B-|-----------11---------------------11----------|
G-|--------13----13----13---------13----13----13-|
D-|-----12----------12---------12----------12----|
A-|--13---------------------13-------------------|


DEWA - Air Mata
(Album `Cintailah Cinta`, Track 9)

Intro:   berurutan sampai  (2 kali)
 -  (2 Kali)
 -  - 
 -  (2 Kali)
 -  - 

verse 1:
               
Air mata yang telah jatuh
          
Membasahi bumi
      
Takkan sanggup menghapus penyesalan
                      
Penyesalan yang kini ada
                
Jadi tak berarti
                      
Kar`na waktu yang bengis terus pergi


REFF :
               
Menangislah, bila harus menangis
                 
Karena kita semua manusia
                       
Manusia bisa terluka, manusia pasti menangis
                           
Dan manusiapun bisa, mengambil hikmah

verse 2:
Dibalik segala duka, tersimpan hikmah
Yang bisa kita petik pelajaran
Dibalik segala suka, tersimpan hikmah
Yang kan mungkin bisa jadi cobaan

REFF, interlude--> chord saat REFF

Chord Lagu Air Mata [Tab] - Dewa 19 Rating: 4.5 Diposkan Oleh: Merdeka Pl