Rabu, 24 November 2010

Chord Lagu Salah apa [Intro-Interlude Tab] - Five Minutes

intro

e|---------------------------------------|
B|--10-10-9-10-10-10/12-10-9-10-10-9-----|
G|-----------------------------------11--|
D|---------------------------------------|
A|---------------------------------------|
E|---------------------------------------|

e|----------------------------------------------------------------------------
B|-----9-9/10-10-12-12/14-14-14/17-17-15-14-10-12/14-14-14-14-14-14-14-14-14--
G|--11------------------------------------------------------------------------
D|----------------------------------------------------------------------------
A|----------------------------------------------------------------------------
E|----------------------------------------------------------------------------

-------------------------|
-1410-10-10-10-10-10----|
-------------------------|
-------------------------|
-------------------------|
-------------------------|


interlude (solo)

e|--------------------------------------------|
B|--/10-10-9-10-9-10-9-10-10/12-9-9----9------|
G|----------------------------------11---11-6-|
D|--------------------------------------------|
A|--------------------------------------------|
E|--------------------------------------------|

e|--------------------------------------|
B|--/10-9-10-9-10-9-10-9-10/12-----14~--|
G|-----------------------------11~------|
D|--------------------------------------|
A|--------------------------------------|
E|--------------------------------------|

e|---------------------|
B|-----10----10/12-9~--|
G|--11----11-----------|
D|---------------------|
A|---------------------|
E|---------------------|

Chord Lagu Salah apa [Intro-Interlude Tab] - Five Minutes Rating: 4.5 Diposkan Oleh: Merdeka Pl